ISO-10303-21;
HEADER;
/* Generated by software containing ST-Developer
 * from STEP Tools, Inc. (www.steptools.com) 
 */

FILE_DESCRIPTION(
/* description */ (''),
/* implementation_level */ '2;1');

FILE_NAME(
/* name */ 
'Z:\\\X\C1raj\X\E1nlatok,c\X\E9gek,dokumentumok\\MultiCash\\modellek\\
t\X\E1ny\X\E9r.stp',
/* time_stamp */ '2023-02-15T12:59:29+01:00',
/* author */ ('krist'),
/* organization */ (''),
/* preprocessor_version */ 'ST-DEVELOPER v18.1',
/* originating_system */ 'Autodesk Inventor 2022',
/* authorisation */ '');

FILE_SCHEMA (('AUTOMOTIVE_DESIGN { 1 0 10303 214 3 1 1 }'));
ENDSEC;

DATA;
#10=MECHANICAL_DESIGN_GEOMETRIC_PRESENTATION_REPRESENTATION('',(#13),#496);
#11=SHAPE_REPRESENTATION_RELATIONSHIP('SRR','None',#503,#12);
#12=ADVANCED_BREP_SHAPE_REPRESENTATION('',(#14),#495);
#13=STYLED_ITEM('',(#512),#14);
#14=MANIFOLD_SOLID_BREP('Solid1',#267);
#15=FACE_BOUND('',#61,.T.);
#16=FACE_BOUND('',#67,.T.);
#17=TOROIDAL_SURFACE('',#302,102.5,2.);
#18=TOROIDAL_SURFACE('',#307,47.488818086378,2.);
#19=TOROIDAL_SURFACE('',#312,35.9,2.);
#20=PLANE('',#292);
#21=PLANE('',#295);
#22=PLANE('',#296);
#23=PLANE('',#310);
#24=PLANE('',#316);
#25=PLANE('',#318);
#26=PLANE('',#320);
#27=CYLINDRICAL_SURFACE('',#290,107.5);
#28=CYLINDRICAL_SURFACE('',#293,104.5);
#29=CYLINDRICAL_SURFACE('',#298,104.5);
#30=CYLINDRICAL_SURFACE('',#317,37.9);
#31=CYLINDRICAL_SURFACE('',#322,101.499999999985);
#32=FACE_OUTER_BOUND('',#50,.T.);
#33=FACE_OUTER_BOUND('',#51,.T.);
#34=FACE_OUTER_BOUND('',#52,.T.);
#35=FACE_OUTER_BOUND('',#53,.T.);
#36=FACE_OUTER_BOUND('',#54,.T.);
#37=FACE_OUTER_BOUND('',#55,.T.);
#38=FACE_OUTER_BOUND('',#56,.T.);
#39=FACE_OUTER_BOUND('',#57,.T.);
#40=FACE_OUTER_BOUND('',#58,.T.);
#41=FACE_OUTER_BOUND('',#59,.T.);
#42=FACE_OUTER_BOUND('',#60,.T.);
#43=FACE_OUTER_BOUND('',#62,.T.);
#44=FACE_OUTER_BOUND('',#63,.T.);
#45=FACE_OUTER_BOUND('',#64,.T.);
#46=FACE_OUTER_BOUND('',#65,.T.);
#47=FACE_OUTER_BOUND('',#66,.T.);
#48=FACE_OUTER_BOUND('',#68,.T.);
#49=FACE_OUTER_BOUND('',#69,.T.);
#50=EDGE_LOOP('',(#176,#177,#178,#179));
#51=EDGE_LOOP('',(#180,#181,#182,#183));
#52=EDGE_LOOP('',(#184,#185,#186,#187,#188));
#53=EDGE_LOOP('',(#189,#190,#191,#192));
#54=EDGE_LOOP('',(#193,#194,#195,#196,#197));
#55=EDGE_LOOP('',(#198,#199,#200,#201));
#56=EDGE_LOOP('',(#202,#203,#204,#205,#206,#207,#208,#209));
#57=EDGE_LOOP('',(#210,#211,#212,#213,#214,#215));
#58=EDGE_LOOP('',(#216,#217,#218,#219));
#59=EDGE_LOOP('',(#220,#221,#222,#223));
#60=EDGE_LOOP('',(#224));
#61=EDGE_LOOP('',(#225));
#62=EDGE_LOOP('',(#226,#227,#228,#229));
#63=EDGE_LOOP('',(#230));
#64=EDGE_LOOP('',(#231,#232,#233,#234));
#65=EDGE_LOOP('',(#235));
#66=EDGE_LOOP('',(#236));
#67=EDGE_LOOP('',(#237));
#68=EDGE_LOOP('',(#238,#239,#240,#241));
#69=EDGE_LOOP('',(#242,#243,#244,#245));
#70=CIRCLE('',#288,104.5);
#71=CIRCLE('',#289,107.5);
#72=CIRCLE('',#291,107.5);
#73=CIRCLE('',#294,104.5);
#74=CIRCLE('',#297,104.5);
#75=CIRCLE('',#299,104.5);
#76=CIRCLE('',#300,104.5);
#77=CIRCLE('',#301,104.5);
#78=CIRCLE('',#303,2.);
#79=CIRCLE('',#304,103.289014063646);
#80=CIRCLE('',#306,48.2778321500236);
#81=CIRCLE('',#308,2.);
#82=CIRCLE('',#309,47.488818086378);
#83=CIRCLE('',#311,37.9);
#84=CIRCLE('',#313,37.9);
#85=CIRCLE('',#314,2.);
#86=CIRCLE('',#315,35.9);
#87=CIRCLE('',#319,47.2832271288644);
#88=CIRCLE('',#321,101.5);
#89=CIRCLE('',#323,101.499999999971);
#90=LINE('',#422,#105);
#91=LINE('',#426,#106);
#92=LINE('',#430,#107);
#93=LINE('',#433,#108);
#94=LINE('',#436,#109);
#95=LINE('',#438,#110);
#96=LINE('',#439,#111);
#97=LINE('',#443,#112);
#98=LINE('',#446,#113);
#99=LINE('',#447,#114);
#100=LINE('',#454,#115);
#101=LINE('',#463,#116);
#102=LINE('',#480,#117);
#103=LINE('',#489,#118);
#104=LINE('',#492,#119);
#105=VECTOR('',#329,10.);
#106=VECTOR('',#332,10.);
#107=VECTOR('',#337,10.);
#108=VECTOR('',#340,10.);
#109=VECTOR('',#343,10.);
#110=VECTOR('',#344,10.);
#111=VECTOR('',#345,10.);
#112=VECTOR('',#350,10.);
#113=VECTOR('',#353,10.);
#114=VECTOR('',#354,10.);
#115=VECTOR('',#363,104.5);
#116=VECTOR('',#376,76.2);
#117=VECTOR('',#401,37.9);
#118=VECTOR('',#412,101.499999999985);
#119=VECTOR('',#417,74.3916135644176);
#120=VERTEX_POINT('',#420);
#121=VERTEX_POINT('',#421);
#122=VERTEX_POINT('',#423);
#123=VERTEX_POINT('',#425);
#124=VERTEX_POINT('',#429);
#125=VERTEX_POINT('',#431);
#126=VERTEX_POINT('',#435);
#127=VERTEX_POINT('',#437);
#128=VERTEX_POINT('',#441);
#129=VERTEX_POINT('',#445);
#130=VERTEX_POINT('',#451);
#131=VERTEX_POINT('',#453);
#132=VERTEX_POINT('',#458);
#133=VERTEX_POINT('',#462);
#134=VERTEX_POINT('',#466);
#135=VERTEX_POINT('',#470);
#136=VERTEX_POINT('',#473);
#137=VERTEX_POINT('',#475);
#138=VERTEX_POINT('',#482);
#139=VERTEX_POINT('',#485);
#140=VERTEX_POINT('',#488);
#141=EDGE_CURVE('',#120,#121,#90,.T.);
#142=EDGE_CURVE('',#121,#122,#70,.T.);
#143=EDGE_CURVE('',#122,#123,#91,.T.);
#144=EDGE_CURVE('',#123,#120,#71,.T.);
#145=EDGE_CURVE('',#124,#123,#92,.T.);
#146=EDGE_CURVE('',#125,#124,#72,.T.);
#147=EDGE_CURVE('',#125,#120,#93,.T.);
#148=EDGE_CURVE('',#126,#122,#94,.T.);
#149=EDGE_CURVE('',#127,#126,#95,.T.);
#150=EDGE_CURVE('',#124,#127,#96,.T.);
#151=EDGE_CURVE('',#126,#128,#73,.T.);
#152=EDGE_CURVE('',#128,#121,#97,.T.);
#153=EDGE_CURVE('',#129,#125,#98,.T.);
#154=EDGE_CURVE('',#128,#129,#99,.T.);
#155=EDGE_CURVE('',#129,#127,#74,.T.);
#156=EDGE_CURVE('',#130,#130,#75,.T.);
#157=EDGE_CURVE('',#130,#131,#100,.T.);
#158=EDGE_CURVE('',#128,#131,#76,.T.);
#159=EDGE_CURVE('',#131,#126,#77,.T.);
#160=EDGE_CURVE('',#131,#132,#78,.T.);
#161=EDGE_CURVE('',#132,#132,#79,.T.);
#162=EDGE_CURVE('',#132,#133,#101,.T.);
#163=EDGE_CURVE('',#133,#133,#80,.T.);
#164=EDGE_CURVE('',#133,#134,#81,.T.);
#165=EDGE_CURVE('',#134,#134,#82,.T.);
#166=EDGE_CURVE('',#135,#135,#83,.T.);
#167=EDGE_CURVE('',#136,#136,#84,.T.);
#168=EDGE_CURVE('',#136,#137,#85,.T.);
#169=EDGE_CURVE('',#137,#137,#86,.T.);
#170=EDGE_CURVE('',#135,#136,#102,.T.);
#171=EDGE_CURVE('',#138,#138,#87,.T.);
#172=EDGE_CURVE('',#139,#139,#88,.T.);
#173=EDGE_CURVE('',#139,#140,#103,.T.);
#174=EDGE_CURVE('',#140,#140,#89,.T.);
#175=EDGE_CURVE('',#140,#138,#104,.T.);
#176=ORIENTED_EDGE('',*,*,#141,.T.);
#177=ORIENTED_EDGE('',*,*,#142,.T.);
#178=ORIENTED_EDGE('',*,*,#143,.T.);
#179=ORIENTED_EDGE('',*,*,#144,.T.);
#180=ORIENTED_EDGE('',*,*,#144,.F.);
#181=ORIENTED_EDGE('',*,*,#145,.F.);
#182=ORIENTED_EDGE('',*,*,#146,.F.);
#183=ORIENTED_EDGE('',*,*,#147,.T.);
#184=ORIENTED_EDGE('',*,*,#143,.F.);
#185=ORIENTED_EDGE('',*,*,#148,.F.);
#186=ORIENTED_EDGE('',*,*,#149,.F.);
#187=ORIENTED_EDGE('',*,*,#150,.F.);
#188=ORIENTED_EDGE('',*,*,#145,.T.);
#189=ORIENTED_EDGE('',*,*,#151,.F.);
#190=ORIENTED_EDGE('',*,*,#148,.T.);
#191=ORIENTED_EDGE('',*,*,#142,.F.);
#192=ORIENTED_EDGE('',*,*,#152,.F.);
#193=ORIENTED_EDGE('',*,*,#141,.F.);
#194=ORIENTED_EDGE('',*,*,#147,.F.);
#195=ORIENTED_EDGE('',*,*,#153,.F.);
#196=ORIENTED_EDGE('',*,*,#154,.F.);
#197=ORIENTED_EDGE('',*,*,#152,.T.);
#198=ORIENTED_EDGE('',*,*,#150,.T.);
#199=ORIENTED_EDGE('',*,*,#155,.F.);
#200=ORIENTED_EDGE('',*,*,#153,.T.);
#201=ORIENTED_EDGE('',*,*,#146,.T.);
#202=ORIENTED_EDGE('',*,*,#156,.F.);
#203=ORIENTED_EDGE('',*,*,#157,.T.);
#204=ORIENTED_EDGE('',*,*,#158,.F.);
#205=ORIENTED_EDGE('',*,*,#154,.T.);
#206=ORIENTED_EDGE('',*,*,#155,.T.);
#207=ORIENTED_EDGE('',*,*,#149,.T.);
#208=ORIENTED_EDGE('',*,*,#159,.F.);
#209=ORIENTED_EDGE('',*,*,#157,.F.);
#210=ORIENTED_EDGE('',*,*,#151,.T.);
#211=ORIENTED_EDGE('',*,*,#158,.T.);
#212=ORIENTED_EDGE('',*,*,#160,.T.);
#213=ORIENTED_EDGE('',*,*,#161,.T.);
#214=ORIENTED_EDGE('',*,*,#160,.F.);
#215=ORIENTED_EDGE('',*,*,#159,.T.);
#216=ORIENTED_EDGE('',*,*,#161,.F.);
#217=ORIENTED_EDGE('',*,*,#162,.T.);
#218=ORIENTED_EDGE('',*,*,#163,.F.);
#219=ORIENTED_EDGE('',*,*,#162,.F.);
#220=ORIENTED_EDGE('',*,*,#163,.T.);
#221=ORIENTED_EDGE('',*,*,#164,.T.);
#222=ORIENTED_EDGE('',*,*,#165,.T.);
#223=ORIENTED_EDGE('',*,*,#164,.F.);
#224=ORIENTED_EDGE('',*,*,#165,.F.);
#225=ORIENTED_EDGE('',*,*,#166,.T.);
#226=ORIENTED_EDGE('',*,*,#167,.T.);
#227=ORIENTED_EDGE('',*,*,#168,.T.);
#228=ORIENTED_EDGE('',*,*,#169,.T.);
#229=ORIENTED_EDGE('',*,*,#168,.F.);
#230=ORIENTED_EDGE('',*,*,#169,.F.);
#231=ORIENTED_EDGE('',*,*,#166,.F.);
#232=ORIENTED_EDGE('',*,*,#170,.T.);
#233=ORIENTED_EDGE('',*,*,#167,.F.);
#234=ORIENTED_EDGE('',*,*,#170,.F.);
#235=ORIENTED_EDGE('',*,*,#171,.T.);
#236=ORIENTED_EDGE('',*,*,#156,.T.);
#237=ORIENTED_EDGE('',*,*,#172,.F.);
#238=ORIENTED_EDGE('',*,*,#172,.T.);
#239=ORIENTED_EDGE('',*,*,#173,.T.);
#240=ORIENTED_EDGE('',*,*,#174,.F.);
#241=ORIENTED_EDGE('',*,*,#173,.F.);
#242=ORIENTED_EDGE('',*,*,#174,.T.);
#243=ORIENTED_EDGE('',*,*,#175,.T.);
#244=ORIENTED_EDGE('',*,*,#171,.F.);
#245=ORIENTED_EDGE('',*,*,#175,.F.);
#246=CONICAL_SURFACE('',#287,106.,0.78539816339745);
#247=CONICAL_SURFACE('',#305,76.2,1.16526501810713);
#248=CONICAL_SURFACE('',#324,74.3916135644176,1.1652650181104);
#249=ADVANCED_FACE('',(#32),#246,.T.);
#250=ADVANCED_FACE('',(#33),#27,.T.);
#251=ADVANCED_FACE('',(#34),#20,.T.);
#252=ADVANCED_FACE('',(#35),#28,.F.);
#253=ADVANCED_FACE('',(#36),#21,.T.);
#254=ADVANCED_FACE('',(#37),#22,.T.);
#255=ADVANCED_FACE('',(#38),#29,.T.);
#256=ADVANCED_FACE('',(#39),#17,.T.);
#257=ADVANCED_FACE('',(#40),#247,.T.);
#258=ADVANCED_FACE('',(#41),#18,.T.);
#259=ADVANCED_FACE('',(#42,#15),#23,.T.);
#260=ADVANCED_FACE('',(#43),#19,.T.);
#261=ADVANCED_FACE('',(#44),#24,.T.);
#262=ADVANCED_FACE('',(#45),#30,.T.);
#263=ADVANCED_FACE('',(#46),#25,.T.);
#264=ADVANCED_FACE('',(#47,#16),#26,.T.);
#265=ADVANCED_FACE('',(#48),#31,.F.);
#266=ADVANCED_FACE('',(#49),#248,.F.);
#267=CLOSED_SHELL('',(#249,#250,#251,#252,#253,#254,#255,#256,#257,#258,
#259,#260,#261,#262,#263,#264,#265,#266));
#268=DERIVED_UNIT_ELEMENT(#270,1.);
#269=DERIVED_UNIT_ELEMENT(#498,-3.);
#270=(
MASS_UNIT()
NAMED_UNIT(*)
SI_UNIT($,.GRAM.)
);
#271=DERIVED_UNIT((#268,#269));
#272=MEASURE_REPRESENTATION_ITEM('density measure',
POSITIVE_RATIO_MEASURE(1.),#271);
#273=PROPERTY_DEFINITION_REPRESENTATION(#278,#275);
#274=PROPERTY_DEFINITION_REPRESENTATION(#279,#276);
#275=REPRESENTATION('material name',(#277),#495);
#276=REPRESENTATION('density',(#272),#495);
#277=DESCRIPTIVE_REPRESENTATION_ITEM('Generic','Generic');
#278=PROPERTY_DEFINITION('material property','material name',#505);
#279=PROPERTY_DEFINITION('material property','density of part',#505);
#280=DATE_TIME_ROLE('creation_date');
#281=APPLIED_DATE_AND_TIME_ASSIGNMENT(#282,#280,(#505));
#282=DATE_AND_TIME(#283,#284);
#283=CALENDAR_DATE(2023,10,2);
#284=LOCAL_TIME(0,0,0.,#285);
#285=COORDINATED_UNIVERSAL_TIME_OFFSET(0,0,.BEHIND.);
#286=AXIS2_PLACEMENT_3D('placement',#418,#325,#326);
#287=AXIS2_PLACEMENT_3D('',#419,#327,#328);
#288=AXIS2_PLACEMENT_3D('',#424,#330,#331);
#289=AXIS2_PLACEMENT_3D('',#427,#333,#334);
#290=AXIS2_PLACEMENT_3D('',#428,#335,#336);
#291=AXIS2_PLACEMENT_3D('',#432,#338,#339);
#292=AXIS2_PLACEMENT_3D('',#434,#341,#342);
#293=AXIS2_PLACEMENT_3D('',#440,#346,#347);
#294=AXIS2_PLACEMENT_3D('',#442,#348,#349);
#295=AXIS2_PLACEMENT_3D('',#444,#351,#352);
#296=AXIS2_PLACEMENT_3D('',#448,#355,#356);
#297=AXIS2_PLACEMENT_3D('',#449,#357,#358);
#298=AXIS2_PLACEMENT_3D('',#450,#359,#360);
#299=AXIS2_PLACEMENT_3D('',#452,#361,#362);
#300=AXIS2_PLACEMENT_3D('',#455,#364,#365);
#301=AXIS2_PLACEMENT_3D('',#456,#366,#367);
#302=AXIS2_PLACEMENT_3D('',#457,#368,#369);
#303=AXIS2_PLACEMENT_3D('',#459,#370,#371);
#304=AXIS2_PLACEMENT_3D('',#460,#372,#373);
#305=AXIS2_PLACEMENT_3D('',#461,#374,#375);
#306=AXIS2_PLACEMENT_3D('',#464,#377,#378);
#307=AXIS2_PLACEMENT_3D('',#465,#379,#380);
#308=AXIS2_PLACEMENT_3D('',#467,#381,#382);
#309=AXIS2_PLACEMENT_3D('',#468,#383,#384);
#310=AXIS2_PLACEMENT_3D('',#469,#385,#386);
#311=AXIS2_PLACEMENT_3D('',#471,#387,#388);
#312=AXIS2_PLACEMENT_3D('',#472,#389,#390);
#313=AXIS2_PLACEMENT_3D('',#474,#391,#392);
#314=AXIS2_PLACEMENT_3D('',#476,#393,#394);
#315=AXIS2_PLACEMENT_3D('',#477,#395,#396);
#316=AXIS2_PLACEMENT_3D('',#478,#397,#398);
#317=AXIS2_PLACEMENT_3D('',#479,#399,#400);
#318=AXIS2_PLACEMENT_3D('',#481,#402,#403);
#319=AXIS2_PLACEMENT_3D('',#483,#404,#405);
#320=AXIS2_PLACEMENT_3D('',#484,#406,#407);
#321=AXIS2_PLACEMENT_3D('',#486,#408,#409);
#322=AXIS2_PLACEMENT_3D('',#487,#410,#411);
#323=AXIS2_PLACEMENT_3D('',#490,#413,#414);
#324=AXIS2_PLACEMENT_3D('',#491,#415,#416);
#325=DIRECTION('axis',(0.,0.,1.));
#326=DIRECTION('refdir',(1.,0.,0.));
#327=DIRECTION('center_axis',(0.,1.,0.));
#328=DIRECTION('ref_axis',(-1.,0.,0.));
#329=DIRECTION('',(0.707106781186548,-0.707106781186547,0.));
#330=DIRECTION('center_axis',(0.,1.,0.));
#331=DIRECTION('ref_axis',(1.,0.,0.));
#332=DIRECTION('',(0.,0.707106781186547,0.707106781186548));
#333=DIRECTION('center_axis',(0.,-1.,0.));
#334=DIRECTION('ref_axis',(-1.,0.,0.));
#335=DIRECTION('center_axis',(0.,-1.,0.));
#336=DIRECTION('ref_axis',(-1.,0.,0.));
#337=DIRECTION('',(0.,-1.,0.));
#338=DIRECTION('center_axis',(0.,1.,0.));
#339=DIRECTION('ref_axis',(-1.,0.,0.));
#340=DIRECTION('',(0.,-1.,0.));
#341=DIRECTION('center_axis',(1.,0.,0.));
#342=DIRECTION('ref_axis',(0.,0.,1.));
#343=DIRECTION('',(0.,-1.,0.));
#344=DIRECTION('',(0.,-1.,0.));
#345=DIRECTION('',(0.,0.,-1.));
#346=DIRECTION('center_axis',(0.,-1.,0.));
#347=DIRECTION('ref_axis',(1.,0.,0.));
#348=DIRECTION('center_axis',(0.,-1.,0.));
#349=DIRECTION('ref_axis',(6.12323399573677E-17,0.,-1.));
#350=DIRECTION('',(0.,-1.,0.));
#351=DIRECTION('center_axis',(0.,0.,-1.));
#352=DIRECTION('ref_axis',(1.,0.,0.));
#353=DIRECTION('',(-1.,0.,0.));
#354=DIRECTION('',(0.,1.,0.));
#355=DIRECTION('center_axis',(0.,1.,0.));
#356=DIRECTION('ref_axis',(0.,0.,1.));
#357=DIRECTION('center_axis',(0.,1.,0.));
#358=DIRECTION('ref_axis',(0.,0.,1.));
#359=DIRECTION('center_axis',(0.,1.,0.));
#360=DIRECTION('ref_axis',(0.,0.,1.));
#361=DIRECTION('center_axis',(0.,1.,0.));
#362=DIRECTION('ref_axis',(1.,0.,0.));
#363=DIRECTION('',(0.,-1.,0.));
#364=DIRECTION('center_axis',(0.,-1.,0.));
#365=DIRECTION('ref_axis',(6.12323399573677E-17,0.,-1.));
#366=DIRECTION('center_axis',(0.,-1.,0.));
#367=DIRECTION('ref_axis',(6.12323399573677E-17,0.,-1.));
#368=DIRECTION('center_axis',(0.,1.,0.));
#369=DIRECTION('ref_axis',(0.,0.,1.));
#370=DIRECTION('center_axis',(-1.,0.,1.22464679914735E-16));
#371=DIRECTION('ref_axis',(-1.22464679914735E-16,0.,-1.));
#372=DIRECTION('center_axis',(0.,1.,0.));
#373=DIRECTION('ref_axis',(-3.06161699786838E-17,0.,-1.));
#374=DIRECTION('center_axis',(0.,1.,0.));
#375=DIRECTION('ref_axis',(0.,0.,1.));
#376=DIRECTION('',(1.12531927551364E-16,-0.394507031822807,0.918892921858885));
#377=DIRECTION('center_axis',(0.,-1.,0.));
#378=DIRECTION('ref_axis',(-3.06161699786838E-17,0.,-1.));
#379=DIRECTION('center_axis',(0.,1.,0.));
#380=DIRECTION('ref_axis',(0.,0.,1.));
#381=DIRECTION('center_axis',(-1.,0.,1.22464679914735E-16));
#382=DIRECTION('ref_axis',(-1.22464679914735E-16,0.,-1.));
#383=DIRECTION('center_axis',(0.,1.,0.));
#384=DIRECTION('ref_axis',(6.12323399573677E-17,0.,-1.));
#385=DIRECTION('center_axis',(0.,-1.,0.));
#386=DIRECTION('ref_axis',(0.,0.,-1.));
#387=DIRECTION('center_axis',(0.,1.,0.));
#388=DIRECTION('ref_axis',(1.,0.,0.));
#389=DIRECTION('center_axis',(0.,1.,0.));
#390=DIRECTION('ref_axis',(0.,0.,1.));
#391=DIRECTION('center_axis',(0.,-1.,0.));
#392=DIRECTION('ref_axis',(6.12323399573677E-17,0.,-1.));
#393=DIRECTION('center_axis',(-1.,0.,1.22464679914735E-16));
#394=DIRECTION('ref_axis',(-1.22464679914735E-16,0.,-1.));
#395=DIRECTION('center_axis',(0.,1.,0.));
#396=DIRECTION('ref_axis',(6.12323399573677E-17,0.,-1.));
#397=DIRECTION('center_axis',(0.,-1.,0.));
#398=DIRECTION('ref_axis',(0.,0.,-1.));
#399=DIRECTION('center_axis',(0.,1.,0.));
#400=DIRECTION('ref_axis',(0.,0.,1.));
#401=DIRECTION('',(0.,-1.,0.));
#402=DIRECTION('center_axis',(0.,1.,0.));
#403=DIRECTION('ref_axis',(0.,0.,1.));
#404=DIRECTION('center_axis',(0.,1.,0.));
#405=DIRECTION('ref_axis',(1.,0.,0.));
#406=DIRECTION('center_axis',(0.,1.,0.));
#407=DIRECTION('ref_axis',(0.,0.,1.));
#408=DIRECTION('center_axis',(0.,1.,0.));
#409=DIRECTION('ref_axis',(1.,0.,0.));
#410=DIRECTION('center_axis',(0.,1.,0.));
#411=DIRECTION('ref_axis',(0.,0.,1.));
#412=DIRECTION('',(0.,-1.,0.));
#413=DIRECTION('center_axis',(0.,1.,0.));
#414=DIRECTION('ref_axis',(1.,0.,0.));
#415=DIRECTION('center_axis',(0.,1.,0.));
#416=DIRECTION('ref_axis',(0.,0.,1.));
#417=DIRECTION('',(1.12531927551523E-16,-0.394507031819796,0.918892921860177));
#418=CARTESIAN_POINT('',(0.,0.,0.));
#419=CARTESIAN_POINT('Origin',(0.,-11.,0.));
#420=CARTESIAN_POINT('',(-107.5,-9.5,0.));
#421=CARTESIAN_POINT('',(-104.5,-12.5,0.));
#422=CARTESIAN_POINT('',(-106.,-11.,0.));
#423=CARTESIAN_POINT('',(0.,-12.5,104.5));
#424=CARTESIAN_POINT('Origin',(0.,-12.5,0.));
#425=CARTESIAN_POINT('',(0.,-9.5,107.5));
#426=CARTESIAN_POINT('',(0.,-11.,106.));
#427=CARTESIAN_POINT('Origin',(0.,-9.5,0.));
#428=CARTESIAN_POINT('Origin',(0.,-1.5,0.));
#429=CARTESIAN_POINT('',(0.,-1.5,107.5));
#430=CARTESIAN_POINT('',(0.,-1.5,107.5));
#431=CARTESIAN_POINT('',(-107.5,-1.5,0.));
#432=CARTESIAN_POINT('Origin',(0.,-1.5,0.));
#433=CARTESIAN_POINT('',(-107.5,-1.5,0.));
#434=CARTESIAN_POINT('Origin',(0.,-1.5,104.5));
#435=CARTESIAN_POINT('',(-1.91963385766348E-14,-12.1821250794874,104.5));
#436=CARTESIAN_POINT('',(0.,-1.5,104.5));
#437=CARTESIAN_POINT('',(0.,-1.5,104.5));
#438=CARTESIAN_POINT('',(0.,-6.75,104.5));
#439=CARTESIAN_POINT('',(0.,-1.5,107.5));
#440=CARTESIAN_POINT('Origin',(0.,-1.5,0.));
#441=CARTESIAN_POINT('',(-104.5,-12.1821250794874,0.));
#442=CARTESIAN_POINT('Origin',(0.,-12.1821250794874,0.));
#443=CARTESIAN_POINT('',(-104.5,-1.5,0.));
#444=CARTESIAN_POINT('Origin',(-107.5,-1.5,0.));
#445=CARTESIAN_POINT('',(-104.5,-1.5,0.));
#446=CARTESIAN_POINT('',(-104.5,-1.5,0.));
#447=CARTESIAN_POINT('',(-104.5,-6.75,0.));
#448=CARTESIAN_POINT('Origin',(-53.75,-1.5,53.75));
#449=CARTESIAN_POINT('Origin',(0.,-1.5,0.));
#450=CARTESIAN_POINT('Origin',(0.,-6.75,0.));
#451=CARTESIAN_POINT('',(-1.27975590510898E-14,1.11022302462516E-15,-104.5));
#452=CARTESIAN_POINT('Origin',(0.,0.,0.));
#453=CARTESIAN_POINT('',(-1.27975590510898E-14,-12.1821250794874,-104.5));
#454=CARTESIAN_POINT('',(-1.27975590510898E-14,-6.75,-104.5));
#455=CARTESIAN_POINT('Origin',(0.,-12.1821250794874,0.));
#456=CARTESIAN_POINT('Origin',(0.,-12.1821250794874,0.));
#457=CARTESIAN_POINT('Origin',(0.,-12.1821250794874,0.));
#458=CARTESIAN_POINT('',(-1.2649256046013E-14,-14.0199109232052,-103.289014063646));
#459=CARTESIAN_POINT('Origin',(-1.25526296912604E-14,-12.1821250794874,
-102.5));
#460=CARTESIAN_POINT('Origin',(-9.48694203450972E-15,-14.0199109232052,
0.));
#461=CARTESIAN_POINT('Origin',(0.,-25.65,0.));
#462=CARTESIAN_POINT('',(-5.91232926122996E-15,-37.6377858437178,-48.2778321500236));
#463=CARTESIAN_POINT('',(-9.33180860950283E-15,-25.65,-76.2));
#464=CARTESIAN_POINT('Origin',(-4.43424694592247E-15,-37.6377858437178,
0.));
#465=CARTESIAN_POINT('Origin',(0.,-35.8,0.));
#466=CARTESIAN_POINT('',(-5.81570290647738E-15,-37.8,-47.488818086378));
#467=CARTESIAN_POINT('Origin',(-5.81570290647738E-15,-35.8,-47.488818086378));
#468=CARTESIAN_POINT('Origin',(0.,-37.8,0.));
#469=CARTESIAN_POINT('Origin',(0.,-37.8,47.9));
#470=CARTESIAN_POINT('',(-4.64141136876847E-15,-37.8,-37.9));
#471=CARTESIAN_POINT('Origin',(0.,-37.8,0.));
#472=CARTESIAN_POINT('Origin',(0.,-40.8,0.));
#473=CARTESIAN_POINT('',(-4.64141136876847E-15,-40.8,-37.9));
#474=CARTESIAN_POINT('Origin',(0.,-40.8,0.));
#475=CARTESIAN_POINT('',(-4.396482008939E-15,-42.8,-35.9));
#476=CARTESIAN_POINT('Origin',(-4.396482008939E-15,-40.8,-35.9));
#477=CARTESIAN_POINT('Origin',(0.,-42.8,0.));
#478=CARTESIAN_POINT('Origin',(0.,-42.8,37.9));
#479=CARTESIAN_POINT('Origin',(0.,-40.3,0.));
#480=CARTESIAN_POINT('',(-4.64141136876847E-15,-40.3,-37.9));
#481=CARTESIAN_POINT('Origin',(0.,-34.7999999999796,0.));
#482=CARTESIAN_POINT('',(-5.79052527567211E-15,-34.8000000001615,-47.2832271288644));
#483=CARTESIAN_POINT('Origin',(0.,-34.8000000001615,0.));
#484=CARTESIAN_POINT('Origin',(0.,0.,101.5));
#485=CARTESIAN_POINT('',(-1.24301650113439E-14,0.,-101.499999999985));
#486=CARTESIAN_POINT('Origin',(0.,0.,0.));
#487=CARTESIAN_POINT('Origin',(0.,-5.76159380965692,0.));
#488=CARTESIAN_POINT('',(-1.24301650113439E-14,-11.5231876193138,-101.499999999985));
#489=CARTESIAN_POINT('',(-1.24301650113439E-14,-5.76159380965692,-101.499999999985));
#490=CARTESIAN_POINT('Origin',(0.,-11.5231876193138,0.));
#491=CARTESIAN_POINT('Origin',(0.,-23.1615938097377,0.));
#492=CARTESIAN_POINT('',(-9.11034514350709E-15,-23.1615938097377,-74.3916135644176));
#493=UNCERTAINTY_MEASURE_WITH_UNIT(LENGTH_MEASURE(0.01),#497,
'DISTANCE_ACCURACY_VALUE',
'Maximum model space distance between geometric entities at asserted c
onnectivities');
#494=UNCERTAINTY_MEASURE_WITH_UNIT(LENGTH_MEASURE(0.01),#497,
'DISTANCE_ACCURACY_VALUE',
'Maximum model space distance between geometric entities at asserted c
onnectivities');
#495=(
GEOMETRIC_REPRESENTATION_CONTEXT(3)
GLOBAL_UNCERTAINTY_ASSIGNED_CONTEXT((#493))
GLOBAL_UNIT_ASSIGNED_CONTEXT((#497,#499,#500))
REPRESENTATION_CONTEXT('','3D')
);
#496=(
GEOMETRIC_REPRESENTATION_CONTEXT(3)
GLOBAL_UNCERTAINTY_ASSIGNED_CONTEXT((#494))
GLOBAL_UNIT_ASSIGNED_CONTEXT((#497,#499,#500))
REPRESENTATION_CONTEXT('','3D')
);
#497=(
LENGTH_UNIT()
NAMED_UNIT(*)
SI_UNIT(.MILLI.,.METRE.)
);
#498=(
LENGTH_UNIT()
NAMED_UNIT(*)
SI_UNIT(.CENTI.,.METRE.)
);
#499=(
NAMED_UNIT(*)
PLANE_ANGLE_UNIT()
SI_UNIT($,.RADIAN.)
);
#500=(
NAMED_UNIT(*)
SI_UNIT($,.STERADIAN.)
SOLID_ANGLE_UNIT()
);
#501=SHAPE_DEFINITION_REPRESENTATION(#502,#503);
#502=PRODUCT_DEFINITION_SHAPE('',$,#505);
#503=SHAPE_REPRESENTATION('',(#286),#495);
#504=PRODUCT_DEFINITION_CONTEXT('part definition',#509,'design');
#505=PRODUCT_DEFINITION('t\X\E1ny\X\E9r','t\X\E1ny\X\E9r',#506,#504);
#506=PRODUCT_DEFINITION_FORMATION('',$,#511);
#507=PRODUCT_RELATED_PRODUCT_CATEGORY('t\X\E1ny\X\E9r','t\X\E1ny\X\E9r',
(#511));
#508=APPLICATION_PROTOCOL_DEFINITION('international standard',
'automotive_design',2009,#509);
#509=APPLICATION_CONTEXT(
'Core Data for Automotive Mechanical Design Process');
#510=PRODUCT_CONTEXT('part definition',#509,'mechanical');
#511=PRODUCT('t\X\E1ny\X\E9r','t\X\E1ny\X\E9r',$,(#510));
#512=PRESENTATION_STYLE_ASSIGNMENT((#513));
#513=SURFACE_STYLE_USAGE(.BOTH.,#516);
#514=SURFACE_STYLE_RENDERING_WITH_PROPERTIES($,#520,(#515));
#515=SURFACE_STYLE_TRANSPARENT(0.);
#516=SURFACE_SIDE_STYLE('',(#517,#514));
#517=SURFACE_STYLE_FILL_AREA(#518);
#518=FILL_AREA_STYLE('',(#519));
#519=FILL_AREA_STYLE_COLOUR('',#520);
#520=COLOUR_RGB('',0.749019607843137,0.749019607843137,0.749019607843137);
ENDSEC;
END-ISO-10303-21;
